all done by me(thats why theres probably mistakes *tee hee* ) i know more but at the moment i am to tired to translate and type into tabb, when i get more time ill have hate, baby skin tattoo, machine punch through, push, leave it alone and silver up, but don't hold yer breath :)
The ones i do have up though i enjoy to play the most
SHOTGUN
A repeat verse
|---------------------------------|---------------------------------|:|
|---------------------------------|---------------------------------|:|
|-5--5-5-5-5---0-2~0-2-2--|--2---4-4-4-4----------------|:|
|---------------------------------|--------------------2~0-2-2--|:|
B chorus 4x
|:|------------------------|-------------------------|:| repeat A + B again
|:|------------------------|-------------------------|:|
|:|--5--5-2----2-2-2--|---4--4-----------------|:|
|:|------------------------|---------2-----2-2-2--|:|

|:|--------------------------------------------------|:|________THE END________
|:|--7---7--7--7----------------------------------|:|   
|:|--5---5--5--5---5--7--7--9-9--9-9---------|:|
|:|--------------------------------------------------|:|

MY CONDITIONING
A
|:|-------------------------------------------2-----|------4----4----6----2--------2---|:|
|:|---------0-----0-----2-----2-----4------------|----------------------------4--------|:|
|:|---2--------2-----2-----0-----0-----0--------|----2----2-----2---0---0----0-----|:|
|:|--------------------------------------------------|--------------------------------------|:|

B 4x
|:|---------------------------|-------------------|:|________To A + B 4x_________
|:|-----------5----5----7-- |----7----7----7--|:|
|:|--5~7-------7----7-----|--5----5----5----|:|
|:|---------------------------|-------------------|:|

END OF CHORUS_______________________BRIDGE 3x_____________
||--------------------------------------------|:|--------------------------------------------|
||----------------5----------------5-------- |:|---------------7----7---------------------|
||----7------7------------------7-----7----|:|-------5----5----5--------5--------------|
||--------------------------------------------|:|--------------------------------------------|

___________________________________dont 3rd___________________
|----------------------------------------------|---------------------------------------------|:|
|------------5-------5----------------------- |---------------5--------5------------------|:|
|---3-----3-----3----------3---------------- |-----7-----7-------7-----7---------------|:|
|----------------------------------------------|---------------------------------------------|:|
to verse A + B chorus
|--------------------------------------|
|------------5------------------------|


|------------3------------------------|
|--------let ringggg--------------|
SEE TOUCH FEEL
A 4x
|:|--------------------------------------|-------------------------------------------||
|:|---7--7-5-7--\---------------------|-------------------------------------------||
|:|-----------------3---3---0--3--5--|-------------------------------------3--5-||
|:|--------------------------------------|----3--3--3-------1---1------3---------||
B verse 4x
||---------------------------|--------7-------------------||
||--7-----------------------|---5------------------------||
||------0----3-3----\7----|--------------------3\5----||

||---------------------------|------------1-1------------||
C 2x
||-----------------------------------|-------------------------------------------- |
||----------7-----------------------|---------------------------------------------|
||-----------------3--3---3-3---- |--5-5-5-5-----8-8-8--8~10------------|
||---5------------------------------|--------------------------------------8------|

|-----------------------------|--------------------------------- |repeat a 2x+ b + c
|------7---------------------|----------------------------------|
|---------------3-3---3-3- |---5-5-5-5---8-8-8--8--10- |
|--5-------------------------|----------------------------------|
Bridge repeat
|:|----------------------------------|:|then do A again and just follow pattern
|:|-------5---------7-7--7~5---- |:|you can hear the parts in the song
|:|-0-0-------------------------7--|:|i think i tabbed most of it
|:|----------------------------------|:|

I would love some help with corrections or if you would like to donate tabb to me, just cause im me, e-mail me @
deadly_clear_addiction@usa.net
hugs & kisses...miss nix
 HOME